ISO-10303-21;
HEADER;
/* Generated by software containing ST-Developer
 * from STEP Tools, Inc. (www.steptools.com) 
 */
/* OPTION: using custom schema-name function */

FILE_DESCRIPTION(
/* description */ (''),
/* implementation_level */ '2;1');

FILE_NAME(
/* name */ 'AGWW 19_20 Kundenmodell.stp',
/* time_stamp */ '2017-05-30T11:44:13+02:00',
/* author */ (''),
/* organization */ (''),
/* preprocessor_version */ 'ST-DEVELOPER v15',
/* originating_system */ 'SIEMENS PLM Software NX 9.0',
/* authorisation */ '');

FILE_SCHEMA (('AUTOMOTIVE_DESIGN { 1 0 10303 214 3 1 1 1 }'));
ENDSEC;

DATA;
#10=PROPERTY_DEFINITION_REPRESENTATION(#14,#12);
#11=PROPERTY_DEFINITION_REPRESENTATION(#15,#13);
#12=REPRESENTATION('',(#16),#543);
#13=REPRESENTATION('',(#17),#543);
#14=PROPERTY_DEFINITION('pmi validation property','',#21);
#15=PROPERTY_DEFINITION('pmi validation property','',#21);
#16=VALUE_REPRESENTATION_ITEM('number of annotations',COUNT_MEASURE(0.));
#17=VALUE_REPRESENTATION_ITEM('number of views',COUNT_MEASURE(0.));
#18=SHAPE_REPRESENTATION_RELATIONSHIP('None',
'relationship between KSE4574DA4Br666-None and KSE4574DA4Br666-None',#30,
#19);
#19=ADVANCED_BREP_SHAPE_REPRESENTATION('KSE4574DA4Br666-None',(#40),#543);
#20=SHAPE_DEFINITION_REPRESENTATION(#21,#30);
#21=PRODUCT_DEFINITION_SHAPE('','',#22);
#22=PRODUCT_DEFINITION(' ','',#24,#23);
#23=PRODUCT_DEFINITION_CONTEXT('part definition',#29,'design');
#24=PRODUCT_DEFINITION_FORMATION_WITH_SPECIFIED_SOURCE(' ',' ',#26,
 .NOT_KNOWN.);
#25=PRODUCT_RELATED_PRODUCT_CATEGORY('part','',(#26));
#26=PRODUCT('KSE4574DA4Br666','KSE4574DA4Br666',' ',(#27));
#27=PRODUCT_CONTEXT(' ',#29,'mechanical');
#28=APPLICATION_PROTOCOL_DEFINITION('international standard',
'automotive_design',2010,#29);
#29=APPLICATION_CONTEXT(
'core data for automotive mechanical design processes');
#30=SHAPE_REPRESENTATION('KSE4574DA4Br666-None',(#334),#543);
#31=PRESENTATION_LAYER_ASSIGNMENT('1','Layer 1',(#40));
#32=STYLED_ITEM('',(#33),#40);
#33=PRESENTATION_STYLE_ASSIGNMENT((#34));
#34=SURFACE_STYLE_USAGE(.BOTH.,#35);
#35=SURFACE_SIDE_STYLE('',(#36));
#36=SURFACE_STYLE_FILL_AREA(#37);
#37=FILL_AREA_STYLE('',(#38));
#38=FILL_AREA_STYLE_COLOUR('',#39);
#39=COLOUR_RGB('Lime',0.8,1.,0.2);
#40=MANIFOLD_SOLID_BREP('',#41);
#41=CLOSED_SHELL('',(#62,#63,#64,#65,#66,#67,#68,#69,#70,#71,#72,#73,#74,
#75,#76,#77));
#42=CYLINDRICAL_SURFACE('',#355,55.);
#43=CYLINDRICAL_SURFACE('',#356,55.);
#44=CYLINDRICAL_SURFACE('',#361,25.);
#45=CYLINDRICAL_SURFACE('',#362,25.);
#46=CYLINDRICAL_SURFACE('',#363,35.);
#47=CYLINDRICAL_SURFACE('',#364,35.);
#48=CYLINDRICAL_SURFACE('',#365,10.);
#49=CYLINDRICAL_SURFACE('',#366,10.);
#50=FACE_OUTER_BOUND('',#154,.T.);
#51=FACE_OUTER_BOUND('',#155,.T.);
#52=FACE_OUTER_BOUND('',#156,.T.);
#53=FACE_OUTER_BOUND('',#157,.T.);
#54=FACE_OUTER_BOUND('',#158,.T.);
#55=FACE_OUTER_BOUND('',#159,.T.);
#56=FACE_OUTER_BOUND('',#160,.T.);
#57=FACE_OUTER_BOUND('',#161,.T.);
#58=FACE_OUTER_BOUND('',#166,.T.);
#59=FACE_OUTER_BOUND('',#167,.T.);
#60=FACE_OUTER_BOUND('',#168,.T.);
#61=FACE_OUTER_BOUND('',#169,.T.);
#62=ADVANCED_FACE('',(#134,#135,#136,#137),#78,.T.);
#63=ADVANCED_FACE('',(#138,#139,#140,#141),#79,.F.);
#64=ADVANCED_FACE('',(#50),#80,.F.);
#65=ADVANCED_FACE('',(#51),#81,.F.);
#66=ADVANCED_FACE('',(#52),#42,.T.);
#67=ADVANCED_FACE('',(#53),#43,.T.);
#68=ADVANCED_FACE('',(#54),#82,.F.);
#69=ADVANCED_FACE('',(#55),#83,.F.);
#70=ADVANCED_FACE('',(#56),#84,.T.);
#71=ADVANCED_FACE('',(#57),#85,.T.);
#72=ADVANCED_FACE('',(#142,#143),#44,.F.);
#73=ADVANCED_FACE('',(#144,#145),#45,.F.);
#74=ADVANCED_FACE('',(#58),#46,.F.);
#75=ADVANCED_FACE('',(#59),#47,.F.);
#76=ADVANCED_FACE('',(#60),#48,.T.);
#77=ADVANCED_FACE('',(#61),#49,.T.);
#78=PLANE('',#343);
#79=PLANE('',#352);
#80=PLANE('',#353);
#81=PLANE('',#354);
#82=PLANE('',#357);
#83=PLANE('',#358);
#84=PLANE('',#359);
#85=PLANE('',#360);
#86=LINE('',#460,#110);
#87=LINE('',#465,#111);
#88=LINE('',#468,#112);
#89=LINE('',#473,#113);
#90=LINE('',#477,#114);
#91=LINE('',#481,#115);
#92=LINE('',#489,#116);
#93=LINE('',#494,#117);
#94=LINE('',#497,#118);
#95=LINE('',#502,#119);
#96=LINE('',#506,#120);
#97=LINE('',#510,#121);
#98=LINE('',#516,#122);
#99=LINE('',#517,#123);
#100=LINE('',#519,#124);
#101=LINE('',#520,#125);
#102=LINE('',#522,#126);
#103=LINE('',#524,#127);
#104=LINE('',#526,#128);
#105=LINE('',#528,#129);
#106=LINE('',#530,#130);
#107=LINE('',#531,#131);
#108=LINE('',#533,#132);
#109=LINE('',#534,#133);
#110=VECTOR('',#371,1.);
#111=VECTOR('',#374,1.);
#112=VECTOR('',#377,1.);
#113=VECTOR('',#380,1.);
#114=VECTOR('',#383,1.);
#115=VECTOR('',#386,1.);
#116=VECTOR('',#395,1.);
#117=VECTOR('',#398,1.);
#118=VECTOR('',#401,1.);
#119=VECTOR('',#404,1.);
#120=VECTOR('',#407,1.);
#121=VECTOR('',#410,1.);
#122=VECTOR('',#417,1.);
#123=VECTOR('',#418,1.);
#124=VECTOR('',#421,1.);
#125=VECTOR('',#422,1.);
#126=VECTOR('',#425,1.);
#127=VECTOR('',#428,1.);
#128=VECTOR('',#431,1.);
#129=VECTOR('',#434,1.);
#130=VECTOR('',#437,1.);
#131=VECTOR('',#438,1.);
#132=VECTOR('',#441,1.);
#133=VECTOR('',#442,1.);
#134=FACE_BOUND('',#146,.T.);
#135=FACE_BOUND('',#147,.T.);
#136=FACE_BOUND('',#148,.T.);
#137=FACE_BOUND('',#149,.T.);
#138=FACE_BOUND('',#150,.T.);
#139=FACE_BOUND('',#151,.T.);
#140=FACE_BOUND('',#152,.T.);
#141=FACE_BOUND('',#153,.T.);
#142=FACE_BOUND('',#162,.T.);
#143=FACE_BOUND('',#163,.T.);
#144=FACE_BOUND('',#164,.T.);
#145=FACE_BOUND('',#165,.T.);
#146=EDGE_LOOP('',(#170));
#147=EDGE_LOOP('',(#171,#172,#173,#174));
#148=EDGE_LOOP('',(#175,#176,#177,#178,#179,#180,#181,#182));
#149=EDGE_LOOP('',(#183));
#150=EDGE_LOOP('',(#184));
#151=EDGE_LOOP('',(#185,#186,#187,#188));
#152=EDGE_LOOP('',(#189,#190,#191,#192,#193,#194,#195,#196));
#153=EDGE_LOOP('',(#197));
#154=EDGE_LOOP('',(#198,#199,#200,#201));
#155=EDGE_LOOP('',(#202,#203,#204,#205));
#156=EDGE_LOOP('',(#206,#207,#208,#209));
#157=EDGE_LOOP('',(#210,#211,#212,#213));
#158=EDGE_LOOP('',(#214,#215,#216,#217));
#159=EDGE_LOOP('',(#218,#219,#220,#221));
#160=EDGE_LOOP('',(#222,#223,#224,#225));
#161=EDGE_LOOP('',(#226,#227,#228,#229));
#162=EDGE_LOOP('',(#230));
#163=EDGE_LOOP('',(#231));
#164=EDGE_LOOP('',(#232));
#165=EDGE_LOOP('',(#233));
#166=EDGE_LOOP('',(#234,#235,#236,#237));
#167=EDGE_LOOP('',(#238,#239,#240,#241));
#168=EDGE_LOOP('',(#242,#243,#244,#245));
#169=EDGE_LOOP('',(#246,#247,#248,#249));
#170=ORIENTED_EDGE('',*,*,#278,.T.);
#171=ORIENTED_EDGE('',*,*,#279,.F.);
#172=ORIENTED_EDGE('',*,*,#280,.T.);
#173=ORIENTED_EDGE('',*,*,#281,.F.);
#174=ORIENTED_EDGE('',*,*,#282,.T.);
#175=ORIENTED_EDGE('',*,*,#283,.T.);
#176=ORIENTED_EDGE('',*,*,#284,.T.);
#177=ORIENTED_EDGE('',*,*,#285,.T.);
#178=ORIENTED_EDGE('',*,*,#286,.T.);
#179=ORIENTED_EDGE('',*,*,#287,.T.);
#180=ORIENTED_EDGE('',*,*,#288,.T.);
#181=ORIENTED_EDGE('',*,*,#289,.T.);
#182=ORIENTED_EDGE('',*,*,#290,.T.);
#183=ORIENTED_EDGE('',*,*,#291,.F.);
#184=ORIENTED_EDGE('',*,*,#292,.F.);
#185=ORIENTED_EDGE('',*,*,#293,.T.);
#186=ORIENTED_EDGE('',*,*,#294,.T.);
#187=ORIENTED_EDGE('',*,*,#295,.T.);
#188=ORIENTED_EDGE('',*,*,#296,.T.);
#189=ORIENTED_EDGE('',*,*,#297,.F.);
#190=ORIENTED_EDGE('',*,*,#298,.T.);
#191=ORIENTED_EDGE('',*,*,#299,.F.);
#192=ORIENTED_EDGE('',*,*,#300,.F.);
#193=ORIENTED_EDGE('',*,*,#301,.F.);
#194=ORIENTED_EDGE('',*,*,#302,.T.);
#195=ORIENTED_EDGE('',*,*,#303,.F.);
#196=ORIENTED_EDGE('',*,*,#304,.F.);
#197=ORIENTED_EDGE('',*,*,#305,.T.);
#198=ORIENTED_EDGE('',*,*,#303,.T.);
#199=ORIENTED_EDGE('',*,*,#306,.T.);
#200=ORIENTED_EDGE('',*,*,#287,.F.);
#201=ORIENTED_EDGE('',*,*,#307,.T.);
#202=ORIENTED_EDGE('',*,*,#289,.F.);
#203=ORIENTED_EDGE('',*,*,#308,.T.);
#204=ORIENTED_EDGE('',*,*,#301,.T.);
#205=ORIENTED_EDGE('',*,*,#309,.F.);
#206=ORIENTED_EDGE('',*,*,#300,.T.);
#207=ORIENTED_EDGE('',*,*,#310,.T.);
#208=ORIENTED_EDGE('',*,*,#290,.F.);
#209=ORIENTED_EDGE('',*,*,#309,.T.);
#210=ORIENTED_EDGE('',*,*,#304,.T.);
#211=ORIENTED_EDGE('',*,*,#307,.F.);
#212=ORIENTED_EDGE('',*,*,#286,.F.);
#213=ORIENTED_EDGE('',*,*,#311,.F.);
#214=ORIENTED_EDGE('',*,*,#285,.F.);
#215=ORIENTED_EDGE('',*,*,#312,.T.);
#216=ORIENTED_EDGE('',*,*,#297,.T.);
#217=ORIENTED_EDGE('',*,*,#311,.T.);
#218=ORIENTED_EDGE('',*,*,#299,.T.);
#219=ORIENTED_EDGE('',*,*,#313,.T.);
#220=ORIENTED_EDGE('',*,*,#283,.F.);
#221=ORIENTED_EDGE('',*,*,#310,.F.);
#222=ORIENTED_EDGE('',*,*,#281,.T.);
#223=ORIENTED_EDGE('',*,*,#314,.T.);
#224=ORIENTED_EDGE('',*,*,#295,.F.);
#225=ORIENTED_EDGE('',*,*,#315,.T.);
#226=ORIENTED_EDGE('',*,*,#293,.F.);
#227=ORIENTED_EDGE('',*,*,#316,.T.);
#228=ORIENTED_EDGE('',*,*,#279,.T.);
#229=ORIENTED_EDGE('',*,*,#317,.T.);
#230=ORIENTED_EDGE('',*,*,#291,.T.);
#231=ORIENTED_EDGE('',*,*,#305,.F.);
#232=ORIENTED_EDGE('',*,*,#278,.F.);
#233=ORIENTED_EDGE('',*,*,#292,.T.);
#234=ORIENTED_EDGE('',*,*,#316,.F.);
#235=ORIENTED_EDGE('',*,*,#296,.F.);
#236=ORIENTED_EDGE('',*,*,#314,.F.);
#237=ORIENTED_EDGE('',*,*,#280,.F.);
#238=ORIENTED_EDGE('',*,*,#317,.F.);
#239=ORIENTED_EDGE('',*,*,#282,.F.);
#240=ORIENTED_EDGE('',*,*,#315,.F.);
#241=ORIENTED_EDGE('',*,*,#294,.F.);
#242=ORIENTED_EDGE('',*,*,#298,.F.);
#243=ORIENTED_EDGE('',*,*,#312,.F.);
#244=ORIENTED_EDGE('',*,*,#284,.F.);
#245=ORIENTED_EDGE('',*,*,#313,.F.);
#246=ORIENTED_EDGE('',*,*,#288,.F.);
#247=ORIENTED_EDGE('',*,*,#306,.F.);
#248=ORIENTED_EDGE('',*,*,#302,.F.);
#249=ORIENTED_EDGE('',*,*,#308,.F.);
#250=VERTEX_POINT('',#459);
#251=VERTEX_POINT('',#461);
#252=VERTEX_POINT('',#462);
#253=VERTEX_POINT('',#464);
#254=VERTEX_POINT('',#466);
#255=VERTEX_POINT('',#469);
#256=VERTEX_POINT('',#470);
#257=VERTEX_POINT('',#472);
#258=VERTEX_POINT('',#474);
#259=VERTEX_POINT('',#476);
#260=VERTEX_POINT('',#478);
#261=VERTEX_POINT('',#480);
#262=VERTEX_POINT('',#482);
#263=VERTEX_POINT('',#485);
#264=VERTEX_POINT('',#488);
#265=VERTEX_POINT('',#490);
#266=VERTEX_POINT('',#491);
#267=VERTEX_POINT('',#493);
#268=VERTEX_POINT('',#495);
#269=VERTEX_POINT('',#498);
#270=VERTEX_POINT('',#499);
#271=VERTEX_POINT('',#501);
#272=VERTEX_POINT('',#503);
#273=VERTEX_POINT('',#505);
#274=VERTEX_POINT('',#507);
#275=VERTEX_POINT('',#509);
#276=VERTEX_POINT('',#511);
#277=VERTEX_POINT('',#514);
#278=EDGE_CURVE('',#250,#250,#318,.T.);
#279=EDGE_CURVE('',#251,#252,#86,.T.);
#280=EDGE_CURVE('',#251,#253,#319,.T.);
#281=EDGE_CURVE('',#254,#253,#87,.T.);
#282=EDGE_CURVE('',#254,#252,#320,.T.);
#283=EDGE_CURVE('',#255,#256,#88,.T.);
#284=EDGE_CURVE('',#256,#257,#321,.T.);
#285=EDGE_CURVE('',#257,#258,#89,.T.);
#286=EDGE_CURVE('',#258,#259,#322,.T.);
#287=EDGE_CURVE('',#259,#260,#90,.T.);
#288=EDGE_CURVE('',#260,#261,#323,.T.);
#289=EDGE_CURVE('',#261,#262,#91,.T.);
#290=EDGE_CURVE('',#262,#255,#324,.T.);
#291=EDGE_CURVE('',#263,#263,#325,.T.);
#292=EDGE_CURVE('',#264,#264,#326,.T.);
#293=EDGE_CURVE('',#265,#266,#92,.T.);
#294=EDGE_CURVE('',#266,#267,#327,.T.);
#295=EDGE_CURVE('',#267,#268,#93,.T.);
#296=EDGE_CURVE('',#268,#265,#328,.T.);
#297=EDGE_CURVE('',#269,#270,#94,.T.);
#298=EDGE_CURVE('',#269,#271,#329,.T.);
#299=EDGE_CURVE('',#272,#271,#95,.T.);
#300=EDGE_CURVE('',#273,#272,#330,.T.);
#301=EDGE_CURVE('',#274,#273,#96,.T.);
#302=EDGE_CURVE('',#274,#275,#331,.T.);
#303=EDGE_CURVE('',#276,#275,#97,.T.);
#304=EDGE_CURVE('',#270,#276,#332,.T.);
#305=EDGE_CURVE('',#277,#277,#333,.T.);
#306=EDGE_CURVE('',#275,#260,#98,.T.);
#307=EDGE_CURVE('',#259,#276,#99,.T.);
#308=EDGE_CURVE('',#261,#274,#100,.T.);
#309=EDGE_CURVE('',#262,#273,#101,.T.);
#310=EDGE_CURVE('',#272,#255,#102,.T.);
#311=EDGE_CURVE('',#270,#258,#103,.T.);
#312=EDGE_CURVE('',#257,#269,#104,.T.);
#313=EDGE_CURVE('',#271,#256,#105,.T.);
#314=EDGE_CURVE('',#253,#268,#106,.T.);
#315=EDGE_CURVE('',#267,#254,#107,.T.);
#316=EDGE_CURVE('',#265,#251,#108,.T.);
#317=EDGE_CURVE('',#252,#266,#109,.T.);
#318=CIRCLE('',#335,25.);
#319=CIRCLE('',#336,35.);
#320=CIRCLE('',#337,35.);
#321=CIRCLE('',#338,10.);
#322=CIRCLE('',#339,55.);
#323=CIRCLE('',#340,10.);
#324=CIRCLE('',#341,55.);
#325=CIRCLE('',#342,25.);
#326=CIRCLE('',#344,25.);
#327=CIRCLE('',#345,35.);
#328=CIRCLE('',#346,35.);
#329=CIRCLE('',#347,10.);
#330=CIRCLE('',#348,55.);
#331=CIRCLE('',#349,10.);
#332=CIRCLE('',#350,55.);
#333=CIRCLE('',#351,25.);
#334=AXIS2_PLACEMENT_3D('',#457,#367,#368);
#335=AXIS2_PLACEMENT_3D('',#458,#369,#370);
#336=AXIS2_PLACEMENT_3D('',#463,#372,#373);
#337=AXIS2_PLACEMENT_3D('',#467,#375,#376);
#338=AXIS2_PLACEMENT_3D('',#471,#378,#379);
#339=AXIS2_PLACEMENT_3D('',#475,#381,#382);
#340=AXIS2_PLACEMENT_3D('',#479,#384,#385);
#341=AXIS2_PLACEMENT_3D('',#483,#387,#388);
#342=AXIS2_PLACEMENT_3D('',#484,#389,#390);
#343=AXIS2_PLACEMENT_3D('',#486,#391,#392);
#344=AXIS2_PLACEMENT_3D('',#487,#393,#394);
#345=AXIS2_PLACEMENT_3D('',#492,#396,#397);
#346=AXIS2_PLACEMENT_3D('',#496,#399,#400);
#347=AXIS2_PLACEMENT_3D('',#500,#402,#403);
#348=AXIS2_PLACEMENT_3D('',#504,#405,#406);
#349=AXIS2_PLACEMENT_3D('',#508,#408,#409);
#350=AXIS2_PLACEMENT_3D('',#512,#411,#412);
#351=AXIS2_PLACEMENT_3D('',#513,#413,#414);
#352=AXIS2_PLACEMENT_3D('',#515,#415,#416);
#353=AXIS2_PLACEMENT_3D('',#518,#419,#420);
#354=AXIS2_PLACEMENT_3D('',#521,#423,#424);
#355=AXIS2_PLACEMENT_3D('',#523,#426,#427);
#356=AXIS2_PLACEMENT_3D('',#525,#429,#430);
#357=AXIS2_PLACEMENT_3D('',#527,#432,#433);
#358=AXIS2_PLACEMENT_3D('',#529,#435,#436);
#359=AXIS2_PLACEMENT_3D('',#532,#439,#440);
#360=AXIS2_PLACEMENT_3D('',#535,#443,#444);
#361=AXIS2_PLACEMENT_3D('',#536,#445,#446);
#362=AXIS2_PLACEMENT_3D('',#537,#447,#448);
#363=AXIS2_PLACEMENT_3D('',#538,#449,#450);
#364=AXIS2_PLACEMENT_3D('',#539,#451,#452);
#365=AXIS2_PLACEMENT_3D('',#540,#453,#454);
#366=AXIS2_PLACEMENT_3D('',#541,#455,#456);
#367=DIRECTION('',(0.,0.,1.));
#368=DIRECTION('',(1.,0.,0.));
#369=DIRECTION('',(0.,0.,-1.));
#370=DIRECTION('',(1.,0.,0.));
#371=DIRECTION('',(0.,1.,0.));
#372=DIRECTION('',(0.,0.,-1.));
#373=DIRECTION('',(1.,0.,0.));
#374=DIRECTION('',(0.,-1.,0.));
#375=DIRECTION('',(0.,0.,-1.));
#376=DIRECTION('',(1.,0.,0.));
#377=DIRECTION('',(0.976857380802044,-0.213891695894371,0.));
#378=DIRECTION('',(0.,0.,1.));
#379=DIRECTION('',(1.,0.,0.));
#380=DIRECTION('',(0.976857380802044,0.213891695894371,0.));
#381=DIRECTION('',(0.,0.,1.));
#382=DIRECTION('',(0.,-1.,0.));
#383=DIRECTION('',(-0.976857380802044,0.213891695894371,0.));
#384=DIRECTION('',(0.,0.,1.));
#385=DIRECTION('',(1.,0.,0.));
#386=DIRECTION('',(-0.976857380802044,-0.213891695894371,0.));
#387=DIRECTION('',(0.,0.,1.));
#388=DIRECTION('',(0.,-1.,0.));
#389=DIRECTION('',(0.,0.,1.));
#390=DIRECTION('',(1.,0.,0.));
#391=DIRECTION('',(0.,0.,1.));
#392=DIRECTION('',(1.,0.,0.));
#393=DIRECTION('',(0.,0.,-1.));
#394=DIRECTION('',(1.,0.,0.));
#395=DIRECTION('',(0.,1.,0.));
#396=DIRECTION('',(0.,0.,1.));
#397=DIRECTION('',(1.,0.,0.));
#398=DIRECTION('',(0.,-1.,0.));
#399=DIRECTION('',(0.,0.,1.));
#400=DIRECTION('',(1.,0.,0.));
#401=DIRECTION('',(0.976857380802044,0.213891695894371,0.));
#402=DIRECTION('',(0.,0.,-1.));
#403=DIRECTION('',(1.,0.,0.));
#404=DIRECTION('',(0.976857380802044,-0.213891695894371,0.));
#405=DIRECTION('',(0.,0.,1.));
#406=DIRECTION('',(0.,-1.,0.));
#407=DIRECTION('',(-0.976857380802044,-0.213891695894371,0.));
#408=DIRECTION('',(0.,0.,-1.));
#409=DIRECTION('',(1.,0.,0.));
#410=DIRECTION('',(-0.976857380802044,0.213891695894371,0.));
#411=DIRECTION('',(0.,0.,1.));
#412=DIRECTION('',(0.,-1.,0.));
#413=DIRECTION('',(0.,0.,1.));
#414=DIRECTION('',(1.,0.,0.));
#415=DIRECTION('',(0.,0.,1.));
#416=DIRECTION('',(1.,0.,0.));
#417=DIRECTION('',(0.,0.,1.));
#418=DIRECTION('',(0.,0.,-1.));
#419=DIRECTION('',(-0.213891695894371,-0.976857380802044,0.));
#420=DIRECTION('',(0.976857380802044,-0.213891695894371,0.));
#421=DIRECTION('',(0.,0.,-1.));
#422=DIRECTION('',(0.,0.,-1.));
#423=DIRECTION('',(0.213891695894371,-0.976857380802044,0.));
#424=DIRECTION('',(0.976857380802044,0.213891695894371,0.));
#425=DIRECTION('',(0.,0.,1.));
#426=DIRECTION('',(0.,0.,-1.));
#427=DIRECTION('',(-1.,0.,0.));
#428=DIRECTION('',(0.,0.,1.));
#429=DIRECTION('',(0.,0.,-1.));
#430=DIRECTION('',(-1.,0.,0.));
#431=DIRECTION('',(0.,0.,-1.));
#432=DIRECTION('',(-0.213891695894371,0.976857380802044,0.));
#433=DIRECTION('',(0.976857380802044,0.213891695894371,0.));
#434=DIRECTION('',(0.,0.,1.));
#435=DIRECTION('',(0.213891695894371,0.976857380802044,0.));
#436=DIRECTION('',(0.976857380802044,-0.213891695894371,0.));
#437=DIRECTION('',(0.,0.,-1.));
#438=DIRECTION('',(0.,0.,1.));
#439=DIRECTION('',(1.,0.,0.));
#440=DIRECTION('',(0.,0.,-1.));
#441=DIRECTION('',(0.,0.,1.));
#442=DIRECTION('',(0.,0.,-1.));
#443=DIRECTION('',(-1.,0.,0.));
#444=DIRECTION('',(0.,0.,1.));
#445=DIRECTION('',(0.,0.,-1.));
#446=DIRECTION('',(-1.,0.,0.));
#447=DIRECTION('',(0.,0.,-1.));
#448=DIRECTION('',(-1.,0.,0.));
#449=DIRECTION('',(0.,0.,-1.));
#450=DIRECTION('',(-1.,0.,0.));
#451=DIRECTION('',(0.,0.,-1.));
#452=DIRECTION('',(-1.,0.,0.));
#453=DIRECTION('',(0.,0.,1.));
#454=DIRECTION('',(1.,0.,0.));
#455=DIRECTION('',(0.,0.,-1.));
#456=DIRECTION('',(-1.,0.,0.));
#457=CARTESIAN_POINT('',(0.,0.,0.));
#458=CARTESIAN_POINT('',(195.,0.,15.));
#459=CARTESIAN_POINT('',(220.,0.,15.));
#460=CARTESIAN_POINT('',(35.,0.,15.));
#461=CARTESIAN_POINT('',(35.,-19.,15.));
#462=CARTESIAN_POINT('',(35.,19.,15.));
#463=CARTESIAN_POINT('',(-1.38777878078145E-014,-19.,15.));
#464=CARTESIAN_POINT('',(-35.,-19.,15.));
#465=CARTESIAN_POINT('',(-35.,0.,15.));
#466=CARTESIAN_POINT('',(-35.,19.,15.));
#467=CARTESIAN_POINT('',(-1.38777878078145E-014,19.,15.));
#468=CARTESIAN_POINT('',(0.,-99.,15.));
#469=CARTESIAN_POINT('',(-206.76404327419,-53.7271559441124,15.));
#470=CARTESIAN_POINT('',(-2.13891695894368,-98.5316649239523,15.));
#471=CARTESIAN_POINT('',(2.77555756156289E-014,-88.7630911159318,15.));
#472=CARTESIAN_POINT('',(2.13891695894378,-98.5316649239522,15.));
#473=CARTESIAN_POINT('',(206.76404327419,-53.7271559441124,15.));
#474=CARTESIAN_POINT('',(206.76404327419,-53.7271559441124,15.));
#475=CARTESIAN_POINT('',(195.,0.,15.));
#476=CARTESIAN_POINT('',(206.76404327419,53.7271559441124,15.));
#477=CARTESIAN_POINT('',(206.76404327419,53.7271559441124,15.));
#478=CARTESIAN_POINT('',(2.13891695894378,98.5316649239522,15.));
#479=CARTESIAN_POINT('',(2.77555756156289E-014,88.7630911159318,15.));
#480=CARTESIAN_POINT('',(-2.13891695894368,98.5316649239523,15.));
#481=CARTESIAN_POINT('',(0.,99.,15.));
#482=CARTESIAN_POINT('',(-206.76404327419,53.7271559441124,15.));
#483=CARTESIAN_POINT('',(-195.,0.,15.));
#484=CARTESIAN_POINT('',(-195.,0.,15.));
#485=CARTESIAN_POINT('',(-170.,0.,15.));
#486=CARTESIAN_POINT('',(-195.,0.,15.));
#487=CARTESIAN_POINT('',(195.,0.,-15.));
#488=CARTESIAN_POINT('',(220.,0.,-15.));
#489=CARTESIAN_POINT('',(35.,0.,-15.));
#490=CARTESIAN_POINT('',(35.,-19.,-15.));
#491=CARTESIAN_POINT('',(35.,19.,-15.));
#492=CARTESIAN_POINT('',(-1.38777878078145E-014,19.,-15.));
#493=CARTESIAN_POINT('',(-35.,19.,-15.));
#494=CARTESIAN_POINT('',(-35.,0.,-15.));
#495=CARTESIAN_POINT('',(-35.,-19.,-15.));
#496=CARTESIAN_POINT('',(-1.38777878078145E-014,-19.,-15.));
#497=CARTESIAN_POINT('',(35.9486293851773,-91.1287247704873,-15.));
#498=CARTESIAN_POINT('',(2.13891695894374,-98.5316649239523,-15.));
#499=CARTESIAN_POINT('',(206.76404327419,-53.7271559441124,-15.));
#500=CARTESIAN_POINT('',(2.77555756156289E-014,-88.7630911159318,-15.));
#501=CARTESIAN_POINT('',(-2.13891695894368,-98.5316649239523,-15.));
#502=CARTESIAN_POINT('',(-35.9486293851773,-91.1287247704873,-15.));
#503=CARTESIAN_POINT('',(-206.76404327419,-53.7271559441124,-15.));
#504=CARTESIAN_POINT('',(-195.,0.,-15.));
#505=CARTESIAN_POINT('',(-206.76404327419,53.7271559441124,-15.));
#506=CARTESIAN_POINT('',(-35.9486293851773,91.1287247704873,-15.));
#507=CARTESIAN_POINT('',(-2.13891695894368,98.5316649239523,-15.));
#508=CARTESIAN_POINT('',(2.77555756156289E-014,88.7630911159318,-15.));
#509=CARTESIAN_POINT('',(2.13891695894374,98.5316649239523,-15.));
#510=CARTESIAN_POINT('',(35.9486293851773,91.1287247704873,-15.));
#511=CARTESIAN_POINT('',(206.76404327419,53.7271559441124,-15.));
#512=CARTESIAN_POINT('',(195.,0.,-15.));
#513=CARTESIAN_POINT('',(-195.,0.,-15.));
#514=CARTESIAN_POINT('',(-170.,0.,-15.));
#515=CARTESIAN_POINT('',(-195.,0.,-15.));
#516=CARTESIAN_POINT('',(2.13891695894374,98.5316649239523,15.));
#517=CARTESIAN_POINT('',(206.76404327419,53.7271559441124,15.));
#518=CARTESIAN_POINT('',(35.9486293851773,91.1287247704873,15.));
#519=CARTESIAN_POINT('',(-2.13891695894368,98.5316649239523,15.));
#520=CARTESIAN_POINT('',(-206.76404327419,53.7271559441124,15.));
#521=CARTESIAN_POINT('',(-35.9486293851773,91.1287247704873,15.));
#522=CARTESIAN_POINT('',(-206.76404327419,-53.7271559441124,15.));
#523=CARTESIAN_POINT('',(-195.,0.,15.));
#524=CARTESIAN_POINT('',(206.76404327419,-53.7271559441124,15.));
#525=CARTESIAN_POINT('',(195.,0.,15.));
#526=CARTESIAN_POINT('',(2.13891695894374,-98.5316649239523,15.));
#527=CARTESIAN_POINT('',(35.9486293851773,-91.1287247704873,15.));
#528=CARTESIAN_POINT('',(-2.13891695894368,-98.5316649239523,15.));
#529=CARTESIAN_POINT('',(-35.9486293851773,-91.1287247704873,15.));
#530=CARTESIAN_POINT('',(-35.,-19.,-15.));
#531=CARTESIAN_POINT('',(-35.,19.,15.));
#532=CARTESIAN_POINT('',(-35.,54.,85.));
#533=CARTESIAN_POINT('',(35.,-19.,15.));
#534=CARTESIAN_POINT('',(35.,19.,-15.));
#535=CARTESIAN_POINT('',(35.,-54.,85.));
#536=CARTESIAN_POINT('',(-195.,0.,85.));
#537=CARTESIAN_POINT('',(195.,0.,85.));
#538=CARTESIAN_POINT('',(1.38777878078145E-014,-19.,85.));
#539=CARTESIAN_POINT('',(1.38777878078145E-014,19.,85.));
#540=CARTESIAN_POINT('',(2.77555756156289E-014,-88.7630911159318,15.));
#541=CARTESIAN_POINT('',(2.77555756156289E-014,88.7630911159318,15.));
#542=MECHANICAL_DESIGN_GEOMETRIC_PRESENTATION_REPRESENTATION('',(#32),#543);
#543=(
GEOMETRIC_REPRESENTATION_CONTEXT(3)
GLOBAL_UNCERTAINTY_ASSIGNED_CONTEXT((#544))
GLOBAL_UNIT_ASSIGNED_CONTEXT((#550,#546,#545))
REPRESENTATION_CONTEXT('AGWW 19_20 Kundenmodell',
'TOP_LEVEL_ASSEMBLY_PART')
);
#544=UNCERTAINTY_MEASURE_WITH_UNIT(LENGTH_MEASURE(2.E-005),#550,
'DISTANCE_ACCURACY_VALUE','Maximum Tolerance applied to model');
#545=(
NAMED_UNIT(*)
SI_UNIT($,.STERADIAN.)
SOLID_ANGLE_UNIT()
);
#546=(
CONVERSION_BASED_UNIT('DEGREE',#548)
NAMED_UNIT(#547)
PLANE_ANGLE_UNIT()
);
#547=DIMENSIONAL_EXPONENTS(0.,0.,0.,0.,0.,0.,0.);
#548=PLANE_ANGLE_MEASURE_WITH_UNIT(PLANE_ANGLE_MEASURE(0.0174532925),#549);
#549=(
NAMED_UNIT(*)
PLANE_ANGLE_UNIT()
SI_UNIT($,.RADIAN.)
);
#550=(
LENGTH_UNIT()
NAMED_UNIT(*)
SI_UNIT(.MILLI.,.METRE.)
);
ENDSEC;
END-ISO-10303-21;
